  0
SECTION
  2
HEADER
  9
$ACADVER
  1
AC1003
  9
$EXTMIN
 10
1.44090920721432
 20
6.6839614475351
  9
$EXTMAX
 10
18.9409092072143
 20
-1.6060385524649
  9
$INSUNITS
 70
1
  9
$INSBASE
 10
10.1909092072143
 20
2.5389614475351
999
Created with OMAX LAYOUT for Windows. (www.omax.com) 6/12/2019
  0
ENDSEC
  0
SECTION
  2
TABLES
  0
TABLE
  2
LAYER
 70
    10
  0
LAYER
  2
0
 70
     0
 62
     7
  6
CONTINUOUS
  0
LAYER
  2
1
 70
     0
 62
     7
  6
CONTINUOUS
  0
LAYER
  2
2
 70
     0
 62
     7
  6
CONTINUOUS
  0
LAYER
  2
3
 70
     0
 62
     7
  6
CONTINUOUS
  0
LAYER
  2
4
 70
     0
 62
     7
  6
CONTINUOUS
  0
LAYER
  2
5
 70
     0
 62
     7
  6
CONTINUOUS
  0
LAYER
  2
6
 70
     0
 62
     7
  6
CONTINUOUS
  0
LAYER
  2
7
 70
     0
 62
     7
  6
CONTINUOUS
  0
LAYER
  2
8
 70
     0
 62
     7
  6
CONTINUOUS
  0
LAYER
  2
9
 70
     0
 62
     7
  6
CONTINUOUS
  0
LAYER
  2
10
 70
     0
 62
     7
  6
CONTINUOUS
  0
LAYER
  2
11
 70
     0
 62
     7
  6
CONTINUOUS
  0
LAYER
  2
12
 70
     0
 62
     7
  6
CONTINUOUS
  0
LAYER
  2
13
 70
     0
 62
     7
  6
CONTINUOUS
  0
LAYER
  2
14
 70
     0
 62
     7
  6
CONTINUOUS
  0
LAYER
  2
15
 70
     0
 62
     7
  6
CONTINUOUS
  0
LAYER
  2
16
 70
     0
 62
     7
  6
CONTINUOUS
  0
LAYER
  2
17
 70
     0
 62
     7
  6
CONTINUOUS
  0
LAYER
  2
18
 70
     0
 62
     7
  6
CONTINUOUS
  0
LAYER
  2
19
 70
     0
 62
     7
  6
CONTINUOUS
  0
LAYER
  2
20
 70
     0
 62
     7
  6
CONTINUOUS
  0
LAYER
  2
21
 70
     0
 62
     7
  6
CONTINUOUS
  0
LAYER
  2
22
 70
     0
 62
     7
  6
CONTINUOUS
  0
LAYER
  2
23
 70
     0
 62
     7
  6
CONTINUOUS
  0
LAYER
  2
24
 70
     0
 62
     7
  6
CONTINUOUS
  0
LAYER
  2
25
 70
     0
 62
     7
  6
CONTINUOUS
  0
LAYER
  2
26
 70
     0
 62
     7
  6
CONTINUOUS
  0
LAYER
  2
27
 70
     0
 62
     7
  6
CONTINUOUS
  0
LAYER
  2
28
 70
     0
 62
     7
  6
CONTINUOUS
  0
LAYER
  2
29
 70
     0
 62
     7
  6
CONTINUOUS
  0
LAYER
  2
30
 70
     0
 62
     7
  6
CONTINUOUS
  0
LAYER
  2
31
 70
     0
 62
     7
  6
CONTINUOUS
  0
ENDTAB
  0
ENDSEC
  0
SECTION
  2
ENTITIES
  0
LINE
  8
0
  6
CONTINUOUS
 62
0
 10
16.6909092072143
 20
-1.6060385524649
 30
0.0
 11
18.9409092072143
 21
-1.6060385524649
 31
0.0
  0
LINE
  8
0
  6
CONTINUOUS
 62
0
 10
1.44090920721432
 20
-1.6060385524649
 30
0.0
 11
17.4409092072143
 21
0.533961447535098
 31
0.0
  0
LINE
  8
0
  6
CONTINUOUS
 62
0
 10
17.3409092072143
 20
0.683961447535098
 30
0.0
 11
16.8909092072143
 21
-1.5460385524649
 31
0.0
  0
LINE
  8
3
  6
CONTINUOUS
 62
3
 10
3.19090920721432
 20
0.6839614475351
 30
0.0
 11
3.19090920721432
 21
2.6839614475351
 31
0.0
  0
LINE
  8
3
  6
CONTINUOUS
 62
3
 10
3.19090920721432
 20
2.6839614475351
 30
0.0
 11
3.69090920721432
 21
2.6839614475351
 31
0.0
  0
LINE
  8
3
  6
CONTINUOUS
 62
3
 10
3.69090920721432
 20
2.6839614475351
 30
0.0
 11
3.69090920721432
 21
6.6839614475351
 31
0.0
  0
LINE
  8
3
  6
CONTINUOUS
 62
3
 10
3.69090920721432
 20
6.6839614475351
 30
0.0
 11
18.4409092072143
 21
6.6839614475351
 31
0.0
  0
LINE
  8
3
  6
CONTINUOUS
 62
3
 10
18.4409092072143
 20
6.6839614475351
 30
0.0
 11
18.4409092072143
 21
2.6839614475351
 31
0.0
  0
LINE
  8
3
  6
CONTINUOUS
 62
3
 10
18.4409092072143
 20
2.6839614475351
 30
0.0
 11
18.9409092072143
 21
2.6839614475351
 31
0.0
  0
LINE
  8
3
  6
CONTINUOUS
 62
3
 10
18.9409092072143
 20
2.6839614475351
 30
0.0
 11
18.9409092072143
 21
0.683961447535098
 31
0.0
  0
LINE
  8
3
  6
CONTINUOUS
 62
3
 10
18.9409092072143
 20
0.683961447535098
 30
0.0
 11
17.4409092072143
 21
0.683961447535098
 31
0.0
  0
LINE
  8
3
  6
CONTINUOUS
 62
3
 10
17.4409092072143
 20
0.683961447535098
 30
0.0
 11
17.4409092072143
 21
4.6839614475351
 31
0.0
  0
LINE
  8
3
  6
CONTINUOUS
 62
3
 10
17.4409092072143
 20
4.6839614475351
 30
0.0
 11
4.69090920721432
 21
4.6839614475351
 31
0.0
  0
LINE
  8
3
  6
CONTINUOUS
 62
3
 10
4.69090920721432
 20
4.6839614475351
 30
0.0
 11
4.69090920721432
 21
0.6839614475351
 31
0.0
  0
LINE
  8
3
  6
CONTINUOUS
 62
3
 10
4.69090920721432
 20
0.6839614475351
 30
0.0
 11
3.19090920721432
 21
0.6839614475351
 31
0.0
  0
LINE
  8
3
  6
CONTINUOUS
 62
3
 10
16.6909092072143
 20
-1.5460385524649
 30
0.0
 11
1.94090920721432
 21
-1.5460385524649
 31
0.0
  0
LINE
  8
3
  6
CONTINUOUS
 62
3
 10
1.94090920721432
 20
-1.5460385524649
 30
0.0
 11
1.94090920721432
 21
2.4539614475351
 31
0.0
  0
LINE
  8
3
  6
CONTINUOUS
 62
3
 10
1.94090920721432
 20
2.4539614475351
 30
0.0
 11
1.44090920721432
 21
2.4539614475351
 31
0.0
  0
LINE
  8
3
  6
CONTINUOUS
 62
3
 10
1.44090920721432
 20
2.4539614475351
 30
0.0
 11
1.44090920721432
 21
4.4539614475351
 31
0.0
  0
LINE
  8
3
  6
CONTINUOUS
 62
3
 10
1.44090920721432
 20
4.4539614475351
 30
0.0
 11
2.94090920721432
 21
4.4539614475351
 31
0.0
  0
LINE
  8
3
  6
CONTINUOUS
 62
3
 10
2.94090920721432
 20
4.4539614475351
 30
0.0
 11
2.94090920721432
 21
0.453961447535098
 31
0.0
  0
LINE
  8
3
  6
CONTINUOUS
 62
3
 10
2.94090920721432
 20
0.453961447535098
 30
0.0
 11
15.6909092072143
 21
0.453961447535098
 31
0.0
  0
LINE
  8
3
  6
CONTINUOUS
 62
3
 10
15.6909092072143
 20
0.453961447535098
 30
0.0
 11
15.6909092072143
 21
4.4539614475351
 31
0.0
  0
LINE
  8
3
  6
CONTINUOUS
 62
3
 10
15.6909092072143
 20
4.4539614475351
 30
0.0
 11
17.1909092072143
 21
4.4539614475351
 31
0.0
  0
LINE
  8
3
  6
CONTINUOUS
 62
3
 10
17.1909092072143
 20
4.4539614475351
 30
0.0
 11
17.1909092072143
 21
2.4539614475351
 31
0.0
  0
LINE
  8
3
  6
CONTINUOUS
 62
3
 10
17.1909092072143
 20
2.4539614475351
 30
0.0
 11
16.6909092072143
 21
2.4539614475351
 31
0.0
  0
LINE
  8
3
  6
CONTINUOUS
 62
3
 10
16.6909092072143
 20
2.4539614475351
 30
0.0
 11
16.6909092072143
 21
-1.5460385524649
 31
0.0
  0
LINE
  8
9
  6
CONTINUOUS
 62
9
 10
17.4409092072143
 20
0.683961447535098
 30
0.0
 11
17.3409092072143
 21
0.683961447535098
 31
0.0
  0
LINE
  8
9
  6
CONTINUOUS
 62
9
 10
17.4409092072143
 20
0.683961447535098
 30
0.0
 11
17.4409092072143
 21
0.533961447535098
 31
0.0
  0
LINE
  8
9
  6
CONTINUOUS
 62
9
 10
16.8909092072143
 20
-1.5460385524649
 30
0.0
 11
16.6909092072143
 21
-1.5460385524649
 31
0.0
  0
LINE
  8
9
  6
CONTINUOUS
 62
9
 10
16.6909092072143
 20
-1.5460385524649
 30
0.0
 11
16.6909092072143
 21
-1.6060385524649
 31
0.0
  0
ENDSEC
  0
EOF
